Chord dasar untuk pemula

pengamen_sBiasanya sebelum bisa jago maen gitar , kita akan belajar dulu chord dasar,kan dulu maen gitarnya cuman buat nyanyi doank he he he.. tul gak ? Nah sekarang udah mulai bosen nih ma yang biasa biasa , makanya belajar dulu chord dasar baru nanti naik ke level berikutnya…. ( game kale🙂 !!)

Keterangan:1,2,3,4 = indek finger
1=telunjuk
2.jari tengah
3.jari manis
4.kelingking

C-major:

|-------|------|-------|-------|------|------|
|--(1)--|------|-------|-------|------|------|
|-------|------|-------|-------|------|------|
|-------|-(2)--|-------|-------|------|------|
|-------|------|--(3)--|-------|------|------|
|-------|------|-------|-------|------|------|
I. Fret
D-major:
|-------|-(2)--|-------|-------|------|------|
|-------|------|--(3)--|-------|------|------|
|-------|-(1)--|-------|-------|------|------|
|-------|------|-------|-------|------|------|
|-------|------|-------|-------|------|------|
|-------|------|-------|-------|------|------|
I. Fret
E-major:
|-------|------|-------|-------|------|------|
|-------|------|-------|-------|------|------|
|--(1)--|------|-------|-------|------|------|
|-------|-(3)--|-------|-------|------|------|
|-------|-(2)--|-------|-------|------|------|
|-------|------|-------|-------|------|------|
I. Fret
F-major:
|--(|)--|------|-------|-------|------|------|
|--(|)--|------|-------|-------|------|------|
|-------|-(2)--|-------|-------|------|------|
|-------|------|--(4)--|-------|------|------|
|-------|------|--(3)--|-------|------|------|
|-------|------|-------|-------|------|------|
I. Fret
G-major:
|-------|------|--(4)--|-------|------|------|
|-------|------|--(3)--|-------|------|------|
|-------|------|-------|-------|------|------|
|-------|------|-------|-------|------|------|
|-------|-(1)--|-------|-------|------|------|
|-------|------|--(2)--|-------|------|------|
I. Fret
A-major:
|-------|------|-------|-------|------|------|
|-------|-(3)--|-------|-------|------|------|
|-------|-(2)--|-------|-------|------|------|
|-------|-(1)--|-------|-------|------|------|
|-------|------|-------|-------|------|------|
|-------|------|-------|-------|------|------|
I. Fret
B-major:
|-------|-(1)--|-------|-------|------|------|
|-------|------|-------|--(4)--|------|------|
|-------|------|-------|--(3)--|------|------|
|-------|------|-------|--(2)--|------|------|
|-------|------|-------|-------|------|------|
|-------|------|-------|-------|------|------|
I. Fret
C-minor:
|-------|------|--(|)--|-------|------|------|
|-------|------|--(|)--|--(2)--|------|------|
|-------|------|--(|)--|-------|-(4)--|------|
|-------|------|--(|)--|-------|-(3)--|------|
|-------|------|--(|)--|-------|------|------|
|-------|------|--(|)--|-------|------|------|
I. Fret
D-minor:
|--(1)--|------|-------|-------|------|------|
|-------|------|--(3)--|-------|------|------|
|-------|-(2)--|-------|-------|------|------|
|-------|------|-------|-------|------|------|
|-------|------|-------|-------|------|------|
|-------|------|-------|-------|------|------|
I. Fret

Selamat belajar chord dasar untuk pemula gitar !!!!

3 Tanggapan

  1. good lah,,!!

    cara nyetem gitar yg baik gmna yah…!!

  2. ya.. harus harmoni boz.. he..he.. ntar dech saya bahas.. mohon sabar ya..🙂

  3. […] Chord dasar untuk pemula […]

Tinggalkan Balasan

Isikan data di bawah atau klik salah satu ikon untuk log in:

Logo WordPress.com

You are commenting using your WordPress.com account. Logout / Ubah )

Gambar Twitter

You are commenting using your Twitter account. Logout / Ubah )

Foto Facebook

You are commenting using your Facebook account. Logout / Ubah )

Foto Google+

You are commenting using your Google+ account. Logout / Ubah )

Connecting to %s

%d blogger menyukai ini: